Song Body

Body

Verse: Bm A Bm G A x4 each verse.

Chorus: D A Bm G A x4 each chorus.

Ever wondered how to play those flute solos well here is the basic pattern, it may 
from solo to solo, all you have to do is play with the pattern or you can just play it with 
it up- either way it is fine.

Part 1
e|----------------------------------|
B|---/7--7-7------------------------|
G|----------7-----------------------|
D|------------9---------------------|
A|----------------------------------|
E|----------------------------------|
[ Tab from: http://www.guitaretab.com/m/men-at-work/11799.html ]
Part 2
e|-------------9-9------------------|
B|-10-10-10-10-----10-7-10-7--------|
G|----------------------------------|
D|----------------------------------|
A|----------------------------------|
E|----------------------------------|

Part 3
e|----------------------------------|
B|---/7--7-7------------------------|
G|----------7-----------------------|
D|------------9---------------------|
A|----------------------------------|
E|----------------------------------|

Part 4
e|----------------------------------|
B|--/7-7-7-7-8-8-7---7--------------|
G|-----------------7---7------------|
D|----------------------------------|
A|----------------------------------|
E|----------------------------------|

Just get the right timing and it will be fine.

If you have comments/ideas/other ways of playing it, just send them to leto@primus.com.au.

thanks.