Song Body

Body

[Intro]

      G     C       G     C       G    C      G
 e||-------------|--------------|---------------|---------|
 B||-------------|--------------|---------------|---------|
 G||-------------|--------------|---------------|---------| BASE
 D||-------------|--------------|---------------|-xx--xx--|  x2
 A||----2---3-2--|----2---3-2---|---2---3-2-----|-xx--xx--|
 E||--3---3------|--3---3-------|-3---3-------3-|---------|  

      G     C       G     C       G    C      G
 e||-------------|--------------|---------------|---------|
 B||--0-3-0-5-3--|--0-3-0-5-3---|-0-3-0-5-3-1-0-|---------|
 G||--0-4-0-5-4--|--0-4-0-5-4---|-0-4-0-5-4-2-0-|-xx--xx--|x2
 D||-------------|--------------|---------------|-xx--xx--|
 A||-------------|--------------|---------------|---------|
 E||-------------|--------------|---------------|---------| 


[Verse 1]

III G       III  C
   When I'm out walking
   G         C
 I strut my stuff
 G       C         G     -xx--xx-
 And I'm so strung out

   G         C
 I'm high as a kite
 G      C     G       C         G     -xx--xx-
 I just might stop to check you out


[Chorus]

           Em
 Let me go on like a
 C
 Blister in the sun
           Em
 Let me go on
     C                        D
 Big hands, I know you're the one

 
[Verse 2]

 G        C
 Body and beats,
   G         C
 I stain my sheets
 G       C         G     -xx--xx-
 I don't even know why
 G      C
 My girlfriend, 
 G            C    G      C           G     -xx--xx-
 She's at the end, She is starting to cry


[Chorus]

           Em
 Let me go on like a
 C
 Blister in the sun
           Em
 Let me go on
     C                         D
 Big hands, I know you're the one    (D|--0-3-4--0-3-4-)


[Instrumental]

      G     C       G     C       G    C      G
 e||-------------|--------------|---------------|---------|
 B||--0-3-0-5-3--|--0-3-0-5-3---|-0-3-0-5-3-1-0-|---------|
 G||--0-4-0-5-4--|--0-4-0-5-4---|-0-4-0-5-4-2-0-|-xx--xx--|x2
 D||-------------|--------------|---------------|-xx--xx--|
 A||-------------|--------------|---------------|---------|
 E||-------------|--------------|---------------|---------| 

      G     C       G     C       G    C      G
 e||--3333333333-|--3333333333--|-3333333333----|---------------|
 B||--0000000000-|--0000000000--|-0000000000----|---------------|
 G||--0000000000-|--0000000000--|-0000000000----|---------------|
 D||-------------|--------------|---------------|-5-3-0-3-0-----|
 A||-------------|--------------|---------------|-----------3-1-|
 E||-------------|--------------|---------------|--------------3|

      G     C       G     C       G    C      G   harmonic
 e||-------------|--------------|---------------|---------|
 B||-------------|--------------|---------------|---------|
 G||-------------|--------------|---------------|-12------|
 D||-------------|--------------|---------------|-12------|
 A||----2---3-2--|----2---3-2---|---2---3-2-----|---------|
 E||--3---3------|--3---3-------|-3---3-------3-|---------|  


[Verse 3]  

(1/2 WHISPER [use palm muted base with muted chords)


 G            C
 When I'm out walking
   G         C
 I strut my stuff
 G       C         G     
 And I'm so strung out

   G         C
 I'm high as a kite
 G      C     G       C         G     
 I just might stop to check you out


[Verse 4] 

(1/2 WHISPER [use palm muted base with muted chords)

 G            C
 When I'm out walking
   G         C
 I strut my stuff
 G       C         G     
 And I'm so strung out

   G         C
 I'm high as a kite
 G      C     G       C         G     
 I just might stop to check you out


[Verse 5] 

(1/2 WHISPER [use palm muted base with muted chords)

 G        C
 Body and beats,
   G         C
 I stain my sheets
 G       C         G     
 I don't even know why
 G      C
 My girlfriend, 
 G            C    G      C           G     
 She's at the end, She is starting to cry


[Verse 6] 

(1/2 WHISPER [use palm muted base with muted chords)

 G            C
 When I'm out walking
   G         C
 I strut my stuff
 G       C         G     
 And I'm so strung out

   G         C
 I'm high as a kite
 G      C     G       C         G     
 I just might stop to check you out


 [Chorus] 
 
Em
Let me go on like a
 C
 Blister in the sun
           Em
 Let me go on
     C                        D
 Big hands, I know you're the one


[Outro]

      G     C       G     C       G    C      G
 e||-------------|--------------|---------------|---------|
 B||--0-3-0-5-3--|--0-3-0-5-3---|-0-3-0-5-3-1-0-|---------|
 G||--0-4-0-5-4--|--0-4-0-5-4---|-0-4-0-5-4-2-0-|-xx--xx--|x2
 D||-------------|--------------|---------------|-xx--xx--|
 A||-------------|--------------|---------------|---------|
 E||-------------|--------------|---------------|---------| 


***********************************
| x   Dead note
***********************************